  0
SECTION
  2
HEADER
  9
$ACADVER
  1
AC1009
  9
$INSBASE
 10
0.0
 20
0.0
 30
0.0
  9
$EXTMIN
 10
-0.6740865542670349
 20
-2.2541001073792182
 30
0.0
  9
$EXTMAX
 10
6.777652872745243
 20
10.06348629070327
 30
0.0
  9
$LIMMIN
 10
0.0
 20
0.0
  9
$LIMMAX
 10
12.0
 20
9.0
  9
$ORTHOMODE
 70
     0
  9
$REGENMODE
 70
     1
  9
$FILLMODE
 70
     1
  9
$QTEXTMODE
 70
     0
  9
$MIRRTEXT
 70
     1
  9
$DRAGMODE
 70
     2
  9
$LTSCALE
 40
0.6
  9
$OSMODE
 70
   111
  9
$ATTMODE
 70
     1
  9
$TEXTSIZE
 40
0.2
  9
$TRACEWID
 40
0.05
  9
$TEXTSTYLE
  7
ARIAL
  9
$CLAYER
  8
2-7
  9
$CELTYPE
  6
BYLAYER
  9
$CECOLOR
 62
   256
  9
$DIMSCALE
 40
1.0
  9
$DIMASZ
 40
0.125
  9
$DIMEXO
 40
0.0625
  9
$DIMDLI
 40
0.25
  9
$DIMRND
 40
0.0
  9
$DIMDLE
 40
0.0
  9
$DIMEXE
 40
0.0625
  9
$DIMTP
 40
0.0
  9
$DIMTM
 40
0.0
  9
$DIMTXT
 40
0.125
  9
$DIMCEN
 40
0.09
  9
$DIMTSZ
 40
0.0
  9
$DIMTOL
 70
     0
  9
$DIMLIM
 70
     0
  9
$DIMTIH
 70
     1
  9
$DIMTOH
 70
     1
  9
$DIMSE1
 70
     0
  9
$DIMSE2
 70
     0
  9
$DIMTAD
 70
     0
  9
$DIMZIN
 70
     4
  9
$DIMBLK
  1

  9
$DIMASO
 70
     1
  9
$DIMSHO
 70
     1
  9
$DIMPOST
  1

  9
$DIMAPOST
  1

  9
$DIMALT
 70
     0
  9
$DIMALTD
 70
     2
  9
$DIMALTF
 40
25.399999999999999
  9
$DIMLFAC
 40
1.0
  9
$DIMTOFL
 70
     0
  9
$DIMTVP
 40
0.0
  9
$DIMTIX
 70
     0
  9
$DIMSOXD
 70
     0
  9
$DIMSAH
 70
     0
  9
$DIMBLK1
  1

  9
$DIMBLK2
  1

  9
$DIMSTYLE
  2
STANDARD
  9
$DIMCLRD
 70
   256
  9
$DIMCLRE
 70
   256
  9
$DIMCLRT
 70
   256
  9
$DIMTFAC
 40
1.0
  9
$DIMGAP
 40
0.09
  9
$LUNITS
 70
     2
  9
$LUPREC
 70
     4
  9
$SKETCHINC
 40
0.1
  9
$FILLETRAD
 40
0.5
  9
$AUNITS
 70
     0
  9
$AUPREC
 70
     0
  9
$MENU
  1
.
  9
$ELEVATION
 40
0.0
  9
$PELEVATION
 40
0.0
  9
$THICKNESS
 40
0.0
  9
$LIMCHECK
 70
     0
  9
$BLIPMODE
 70
     0
  9
$CHAMFERA
 40
0.0
  9
$CHAMFERB
 40
0.0
  9
$SKPOLY
 70
     0
  9
$TDCREATE
 40
2452392.3517971062
  9
$TDUPDATE
 40
2452554.4580074069
  9
$TDINDWG
 40
0.1200988426
  9
$TDUSRTIMER
 40
0.1200962963
  9
$USRTIMER
 70
     1
  9
$ANGBASE
 50
0.0
  9
$ANGDIR
 70
     0
  9
$PDMODE
 70
     3
  9
$PDSIZE
 40
0.0
  9
$PLINEWID
 40
0.0
  9
$COORDS
 70
     2
  9
$SPLFRAME
 70
     0
  9
$SPLINETYPE
 70
     6
  9
$SPLINESEGS
 70
     8
  9
$ATTDIA
 70
     0
  9
$ATTREQ
 70
     1
  9
$HANDLING
 70
  4097
  9
$HANDSEED
  5
B96
  9
$SURFTAB1
 70
     6
  9
$SURFTAB2
 70
     6
  9
$SURFTYPE
 70
     6
  9
$SURFU
 70
     6
  9
$SURFV
 70
     6
  9
$UCSNAME
  2

  9
$UCSORG
 10
0.0
 20
0.0
 30
0.0
  9
$UCSXDIR
 10
1.0
 20
0.0
 30
0.0
  9
$UCSYDIR
 10
0.0
 20
1.0
 30
0.0
  9
$PUCSNAME
  2

  9
$PUCSORG
 10
0.0
 20
0.0
 30
0.0
  9
$PUCSXDIR
 10
1.0
 20
0.0
 30
0.0
  9
$PUCSYDIR
 10
0.0
 20
1.0
 30
0.0
  9
$USERI1
 70
     0
  9
$USERI2
 70
     0
  9
$USERI3
 70
     0
  9
$USERI4
 70
     0
  9
$USERI5
 70
     0
  9
$USERR1
 40
1.0
  9
$USERR2
 40
25.399999999999999
  9
$USERR3
 40
0.0
  9
$USERR4
 40
0.0
  9
$USERR5
 40
0.0
  9
$WORLDVIEW
 70
     1
  9
$SHADEDGE
 70
     3
  9
$SHADEDIF
 70
    70
  9
$TILEMODE
 70
     1
  9
$MAXACTVP
 70
    48
  9
$PLIMCHECK
 70
     0
  9
$PEXTMIN
 10
1.0000000000000000E+020
 20
1.0000000000000000E+020
 30
1.0000000000000000E+020
  9
$PEXTMAX
 10
-1.0000000000000000E+020
 20
-1.0000000000000000E+020
 30
-1.0000000000000000E+020
  9
$PLIMMIN
 10
0.0
 20
0.0
  9
$PLIMMAX
 10
12.0
 20
9.0
  9
$UNITMODE
 70
     0
  9
$VISRETAIN
 70
     1
  9
$PLINEGEN
 70
     0
  9
$PSLTSCALE
 70
     1
  0
ENDSEC
  0
SECTION
  2
TABLES
  0
TABLE
  2
VPORT
 70
     2
  0
VPORT
  2
*ACTIVE
 70
     0
 10
0.0
 20
0.0
 11
1.0
 21
1.0
 12
3.052149781735455
 22
3.9045619693300289
 13
0.0
 23
0.0
 14
0.5
 24
0.5
 15
0.5
 25
0.5
 16
0.0
 26
0.0
 36
1.0
 17
0.0
 27
0.0
 37
0.0
 40
12.652045576309121
 41
1.3665594855305461
 42
50.0
 43
0.0
 44
0.0
 50
0.0
 51
0.0
 71
     0
 72
   100
 73
     1
 74
     2
 75
     0
 76
     0
 77
     0
 78
     0
  0
ENDTAB
  0
TABLE
  2
LTYPE
 70
     3
  0
LTYPE
  2
CONTINUOUS
 70
     0
  3
Solid line
 72
    65
 73
     0
 40
0.0
  0
LTYPE
  2
CENTER
 70
     0
  3
Center ____ _ ____ _ ____ _ ____ _ ____ _ ____
 72
    65
 73
     4
 40
2.0
 49
1.25
 49
-0.25
 49
0.25
 49
-0.25
  0
LTYPE
  2
HIDDEN
 70
     0
  3
Hidden __ __ __ __ __ __ __ __ __ __ __ __ __ _
 72
    65
 73
     2
 40
0.375
 49
0.25
 49
-0.125
  0
ENDTAB
  0
TABLE
  2
LAYER
 70
     5
  0
LAYER
  2
0
 70
     0
 62
     7
  6
CONTINUOUS
  0
LAYER
  2
CENTERLINE
 70
     0
 62
     1
  6
CENTER
  0
LAYER
  2
2-7
 70
     0
 62
     2
  6
CONTINUOUS
  0
LAYER
  2
ADAPTER
 70
     0
 62
     3
  6
CONTINUOUS
  0
LAYER
  2
DRIVE_TANG
 70
     0
 62
     4
  6
CONTINUOUS
  0
ENDTAB
  0
TABLE
  2
STYLE
 70
     2
  0
STYLE
  2
STANDARD
 70
     0
 40
0.0
 41
1.0
 50
0.0
 71
     0
 42
0.2
  3
txt
  4

  0
STYLE
  2
ARIAL
 70
     0
 40
0.0
 41
1.0
 50
0.0
 71
     0
 42
0.2
  3
txt
  4

  0
ENDTAB
  0
TABLE
  2
VIEW
 70
     0
  0
ENDTAB
  0
TABLE
  2
UCS
 70
     0
  0
ENDTAB
  0
TABLE
  2
APPID
 70
     1
  0
APPID
  2
ACAD
 70
     0
  0
ENDTAB
  0
TABLE
  2
DIMSTYLE
 70
     1
  0
DIMSTYLE
  2
STANDARD
 70
     0
  3

  4

  5

  6

  7

 40
1.0
 41
0.125
 42
0.0625
 43
0.25
 44
0.0625
 45
0.0
 46
0.0
 47
0.0
 48
0.0
140
0.125
141
0.09
142
0.0
143
25.399999999999999
144
1.0
145
0.0
146
1.0
147
0.09
 71
     0
 72
     0
 73
     1
 74
     1
 75
     0
 76
     0
 77
     0
 78
     4
170
     0
171
     2
172
     0
173
     0
174
     0
175
     0
176
   256
177
   256
178
   256
  0
ENDTAB
  0
ENDSEC
  0
SECTION
  2
BLOCKS
  0
BLOCK
  8
0
  2
$MODEL_SPACE
 70
     0
 10
0.0
 20
0.0
 30
0.0
  3
$MODEL_SPACE
  1

  0
ENDBLK
  5
21
  8
0
  0
BLOCK
 67
     1
  8
0
  2
$PAPER_SPACE
 70
     0
 10
0.0
 20
0.0
 30
0.0
  3
$PAPER_SPACE
  1

  0
ENDBLK
  5
1D
 67
     1
  8
0
  0
ENDSEC
  0
SECTION
  2
ENTITIES
  0
LINE
  5
75
  8
2-7
 10
0.7517264331952811
 20
0.4860574606207818
 30
0.0
 11
4.7155060875952817
 21
0.4860574606207818
 31
0.0
  0
LINE
  5
77
  8
2-7
 10
0.7517264331952817
 20
-2.0729977393792178
 30
0.0
 11
4.7155060875952817
 21
-2.0729977393792178
 31
0.0
  0
LINE
  5
79
  8
CENTERLINE
 10
-0.219139739604718
 20
-0.7934701393792182
 30
0.0
 11
5.6863722603952809
 21
-0.7934701393792182
 31
0.0
  0
CIRCLE
  5
7C
  8
2-7
 10
0.9619626603952816
 20
-0.7934701393792182
 30
0.0
 40
0.312000009984
  0
CIRCLE
  5
7D
  8
2-7
 10
2.3792855403952808
 20
-0.7934701393792182
 30
0.0
 40
0.312000009984
  0
CIRCLE
  5
7E
  8
2-7
 10
3.087946980395281
 20
-0.7934701393792182
 30
0.0
 40
0.312000009984
  0
CIRCLE
  5
7F
  8
2-7
 10
4.5052698603952823
 20
-0.7934701393792182
 30
0.0
 40
0.312000009984
  0
CIRCLE
  5
82
  8
2-7
 10
1.6706241003952811
 20
-0.7934701393792182
 30
0.0
 40
1.0590551519999989
  0
CIRCLE
  5
83
  8
2-7
 10
3.7966084203952821
 20
-0.7934701393792182
 30
0.0
 40
1.0590551519999989
  0
ARC
  5
87
  8
2-7
 10
2.7532491330014901
 20
-0.793470139379218
 30
0.0
 40
2.3425719273937911
 50
326.89286183681821
 51
33.107138163181709
  0
ARC
  5
88
  8
2-7
 10
2.7139833877890731
 20
-0.793470139379218
 30
0.0
 40
2.3425719273937911
 50
146.89286183681821
 51
213.1071381631817
  0
LINE
  5
CC
  8
2-7
 10
0.3714114603952818
 20
4.1831711419032747
 30
0.0
 11
0.3714114603952818
 21
7.3233287227032768
 31
0.0
  0
LINE
  5
CD
  8
2-7
 10
5.0958210603952807
 20
4.1831711419032764
 30
0.0
 11
5.0958210603952798
 21
7.3233287227032768
 31
0.0
  0
LINE
  5
CE
  8
2-7
 10
0.3714114603952818
 20
4.1831711419032747
 30
0.0
 11
5.0958210603952807
 21
4.1831711419032764
 31
0.0
  0
LINE
  5
CF
  8
2-7
 10
0.3714114603952818
 20
7.3233287227032768
 30
0.0
 11
5.0958210603952798
 21
7.3233287227032768
 31
0.0
  0
LINE
  5
D0
  8
2-7
  6
HIDDEN
 10
4.7155060875952817
 20
4.1831711419032764
 30
0.0
 11
4.7155060875952817
 21
7.3233287227032777
 31
0.0
  0
LINE
  5
D1
  8
2-7
 10
4.8556635723952821
 20
3.3863207227032759
 30
0.0
 11
4.8556635723952821
 21
4.1831711419032764
 31
0.0
  0
LINE
  5
D2
  8
2-7
 10
2.7375532683952808
 20
3.3863207227032759
 30
0.0
 11
2.7375532683952808
 21
4.1831711419032764
 31
0.0
  0
LINE
  5
D3
  8
2-7
 10
2.7375532683952808
 20
3.3863207227032759
 30
0.0
 11
4.8556635723952821
 21
3.3863207227032759
 31
0.0
  0
LINE
  5
D4
  8
2-7
 10
0.6115689483952816
 20
3.3863207227032759
 30
0.0
 11
0.6115689483952816
 21
4.1831711419032764
 31
0.0
  0
LINE
  5
D5
  8
2-7
 10
2.7296792523952811
 20
3.3863207227032759
 30
0.0
 11
2.7296792523952811
 21
4.1831711419032764
 31
0.0
  0
LINE
  5
D6
  8
2-7
 10
2.7296792523952811
 20
3.3863207227032759
 30
0.0
 11
0.6115689483952816
 21
3.3863207227032759
 31
0.0
  0
LINE
  5
D7
  8
2-7
  6
HIDDEN
 10
0.7517264331952807
 20
4.1831711419032764
 30
0.0
 11
0.7517264331952817
 21
7.3233287227032777
 31
0.0
  0
POLYLINE
  5
11B
  8
2-7
 66
     1
 10
0.0
 20
0.0
 30
0.0
 70
     1
  0
VERTEX
  5
B81
  8
2-7
 10
1.511511816393162
 20
-0.5178795793792183
 30
0.0
  0
VERTEX
  5
B82
  8
2-7
 10
1.352399532391042
 20
-0.7934701393792182
 30
0.0
  0
VERTEX
  5
B83
  8
2-7
 10
1.5115118163931609
 20
-1.0690606993792171
 30
0.0
  0
VERTEX
  5
B84
  8
2-7
 10
1.829736384397401
 20
-1.069060699379218
 30
0.0
  0
VERTEX
  5
B85
  8
2-7
 10
1.988848668399521
 20
-0.7934701393792186
 30
0.0
  0
VERTEX
  5
B86
  8
2-7
 10
1.829736384397401
 20
-0.5178795793792185
 30
0.0
  0
SEQEND
  5
B87
  8
2-7
  0
CIRCLE
  5
11C
  8
2-7
 10
1.6706241003952811
 20
-0.7934701393792182
 30
0.0
 40
0.25590552
  0
CIRCLE
  5
11D
  8
2-7
 10
3.7966084203952821
 20
-0.7934701393792182
 30
0.0
 40
0.25590552
  0
POLYLINE
  5
11E
  8
2-7
 66
     1
 10
0.0
 20
0.0
 30
0.0
 70
     1
  0
VERTEX
  5
B88
  8
2-7
 10
3.6374961363931622
 20
-0.5178795793792183
 30
0.0
  0
VERTEX
  5
B89
  8
2-7
 10
3.4783838523910422
 20
-0.7934701393792182
 30
0.0
  0
VERTEX
  5
B8A
  8
2-7
 10
3.6374961363931622
 20
-1.0690606993792171
 30
0.0
  0
VERTEX
  5
B8B
  8
2-7
 10
3.9557207043974012
 20
-1.069060699379218
 30
0.0
  0
VERTEX
  5
B8C
  8
2-7
 10
4.1148329883995212
 20
-0.7934701393792186
 30
0.0
  0
VERTEX
  5
B8D
  8
2-7
 10
3.9557207043974021
 20
-0.5178795793792185
 30
0.0
  0
SEQEND
  5
B8E
  8
2-7
  0
LINE
  5
11F
  8
2-7
 10
1.988848668399521
 20
3.0930136267032751
 30
0.0
 11
1.988848668399521
 21
3.3725411947032762
 31
0.0
  0
LINE
  5
120
  8
2-7
 10
1.829736384397401
 20
3.093013626703276
 30
0.0
 11
1.829736384397401
 21
3.3725411947032762
 31
0.0
  0
LINE
  5
121
  8
2-7
 10
1.5115118163931609
 20
3.093013626703276
 30
0.0
 11
1.5115118163931609
 21
3.3725411947032762
 31
0.0
  0
LINE
  5
122
  8
2-7
 10
1.3523995323910409
 20
3.093013626703276
 30
0.0
 11
1.3523995323910409
 21
3.3725411947032762
 31
0.0
  0
LINE
  5
123
  8
2-7
 10
1.988848668399521
 20
3.0930136267032751
 30
0.0
 11
1.3523995323910409
 21
3.093013626703276
 31
0.0
  0
LINE
  5
124
  8
2-7
 10
1.3445255163910419
 20
3.3725411947032762
 30
0.0
 11
1.9967226843995209
 21
3.3725411947032762
 31
0.0
  0
LINE
  5
125
  8
2-7
 10
1.3445255163910419
 20
3.3725411947032762
 30
0.0
 11
1.3445255163910419
 21
3.3863207227032759
 31
0.0
  0
LINE
  5
126
  8
2-7
 10
1.9967226843995209
 20
3.3725411947032762
 30
0.0
 11
1.9967226843995209
 21
3.3863207227032759
 31
0.0
  0
ARC
  5
129
  8
2-7
 10
1.6706241003952811
 20
3.1135188767032749
 30
0.0
 40
0.2567257299999997
 50
184.5812200852769
 51
355.41877991472302
  0
ARC
  5
12A
  8
2-7
 10
3.7966084203952821
 20
3.1135188767032749
 30
0.0
 40
0.2567257299999997
 50
184.5812200852769
 51
355.41877991472302
  0
LINE
  5
12B
  8
2-7
 10
3.470509836391042
 20
3.3725411947032762
 30
0.0
 11
4.1227070043995209
 21
3.3725411947032762
 31
0.0
  0
LINE
  5
12C
  8
2-7
 10
4.1148329883995212
 20
3.0930136267032751
 30
0.0
 11
3.4783838523910422
 21
3.093013626703276
 31
0.0
  0
LINE
  5
12D
  8
2-7
 10
3.470509836391042
 20
3.3725411947032762
 30
0.0
 11
3.470509836391042
 21
3.3863207227032759
 31
0.0
  0
LINE
  5
12E
  8
2-7
 10
3.4783838523910422
 20
3.093013626703276
 30
0.0
 11
3.4783838523910422
 21
3.3725411947032762
 31
0.0
  0
LINE
  5
12F
  8
2-7
 10
3.6374961363931622
 20
3.093013626703276
 30
0.0
 11
3.6374961363931622
 21
3.3725411947032762
 31
0.0
  0
LINE
  5
130
  8
2-7
 10
3.9557207043974021
 20
3.093013626703276
 30
0.0
 11
3.9557207043974021
 21
3.3725411947032762
 31
0.0
  0
LINE
  5
131
  8
2-7
 10
4.1148329883995212
 20
3.0930136267032751
 30
0.0
 11
4.1148329883995212
 21
3.3725411947032762
 31
0.0
  0
LINE
  5
132
  8
2-7
 10
4.1227070043995209
 20
3.3725411947032762
 30
0.0
 11
4.1227070043995209
 21
3.3863207227032759
 31
0.0
  0
LINE
  5
176
  8
2-7
 10
2.0672855304112812
 20
1.8115175227032749
 30
0.0
 11
2.0672855304112812
 21
3.3863207227032759
 31
0.0
  0
LINE
  5
177
  8
2-7
 10
2.6912855503792819
 20
1.8115175227032749
 30
0.0
 11
2.6912855503792819
 21
3.3863207227032759
 31
0.0
  0
LINE
  5
178
  8
2-7
 10
2.6912855503792819
 20
1.8115175227032749
 30
0.0
 11
2.0672855304112812
 21
1.8115175227032749
 31
0.0
  0
LINE
  5
188
  8
2-7
 10
2.7759469704112809
 20
1.8115175227032749
 30
0.0
 11
2.7759469704112809
 21
3.3863207227032759
 31
0.0
  0
LINE
  5
189
  8
2-7
 10
3.3999469903792821
 20
1.8115175227032749
 30
0.0
 11
3.3999469903792821
 21
3.3863207227032759
 31
0.0
  0
LINE
  5
18A
  8
2-7
 10
2.7759469704112809
 20
1.8115175227032749
 30
0.0
 11
3.3999469903792821
 21
1.8115175227032749
 31
0.0
  0
LINE
  5
924
  8
DRIVE_TANG
  6
HIDDEN
 10
2.5367658603952821
 20
7.4020688827032757
 30
0.0
 11
2.930466660395282
 21
7.4020688827032757
 31
0.0
  0
LINE
  5
925
  8
DRIVE_TANG
  6
HIDDEN
 10
2.191096557995281
 20
8.9871083035032768
 30
0.0
 11
3.2761359627952809
 21
8.9871083035032768
 31
0.0
  0
LINE
  5
926
  8
2-7
  6
HIDDEN
 10
2.930466660395282
 20
7.4020688827032757
 30
0.0
 11
2.5367658603952821
 21
7.4020688827032757
 31
0.0
  0
LINE
  5
927
  8
DRIVE_TANG
  6
HIDDEN
 10
2.5367658603952821
 20
7.8189980299032769
 30
0.0
 11
2.5367658603952821
 21
7.4020688827032757
 31
0.0
  0
LINE
  5
928
  8
2-7
  6
HIDDEN
 10
2.182435140395282
 20
7.7957696827032761
 30
0.0
 11
2.182435140395282
 21
7.3233287227032768
 31
0.0
  0
LINE
  5
929
  8
2-7
  6
HIDDEN
 10
2.5367658603952821
 20
7.4020688827032757
 30
0.0
 11
2.5367658603952821
 21
7.7957696827032761
 31
0.0
  0
LINE
  5
92A
  8
DRIVE_TANG
  6
HIDDEN
 10
2.191096557995281
 20
7.8189980299032769
 30
0.0
 11
2.5367658603952821
 21
7.8189980299032769
 31
0.0
  0
LINE
  5
92B
  8
2-7
  6
HIDDEN
 10
2.182435140395282
 20
7.7957696827032761
 30
0.0
 11
2.5367658603952821
 21
7.7957696827032761
 31
0.0
  0
LINE
  5
92C
  8
DRIVE_TANG
  6
HIDDEN
 10
2.191096557995281
 20
8.9871083035032768
 30
0.0
 11
2.191096557995281
 21
7.8189980299032769
 31
0.0
  0
LINE
  5
92D
  8
DRIVE_TANG
  6
HIDDEN
 10
2.930466660395282
 20
7.4020688827032757
 30
0.0
 11
2.930466660395282
 21
7.8189980299032751
 31
0.0
  0
LINE
  5
92E
  8
2-7
  6
HIDDEN
 10
3.2847973803952821
 20
7.7957696827032761
 30
0.0
 11
3.2847973803952821
 21
7.3233287227032777
 31
0.0
  0
LINE
  5
92F
  8
2-7
  6
HIDDEN
 10
2.930466660395282
 20
7.7957696827032761
 30
0.0
 11
2.930466660395282
 21
7.4020688827032757
 31
0.0
  0
LINE
  5
930
  8
DRIVE_TANG
  6
HIDDEN
 10
2.930466660395282
 20
7.8189980299032751
 30
0.0
 11
3.2761359627952822
 21
7.8189980299032769
 31
0.0
  0
LINE
  5
931
  8
2-7
  6
HIDDEN
 10
2.930466660395282
 20
7.7957696827032761
 30
0.0
 11
3.2847973803952821
 21
7.7957696827032761
 31
0.0
  0
LINE
  5
932
  8
DRIVE_TANG
  6
HIDDEN
 10
3.2761359627952809
 20
8.9871083035032768
 30
0.0
 11
3.2761359627952822
 21
7.8189980299032769
 31
0.0
  0
TEXT
  5
9FF
  8
0
 10
-0.6740865542670349
 20
1.1864771041977411
 30
0.0
 40
0.125
  1
THE ADAPTER SHOWN IN THIS DRAWING IS ONLY TO ILLUSTRATE A TYPICAL ADAPTER
  7
ARIAL
  0
ARC
  5
ACA
  8
ADAPTER
  6
HIDDEN
 10
2.7336162603952809
 20
-0.7934701393792185
 30
0.0
 40
1.460629967999999
 50
129.80800625111209
 51
230.19199374888771
  0
CIRCLE
  5
ACB
  8
ADAPTER
  6
HIDDEN
 10
2.7336162603952809
 20
-0.7934701393792185
 30
0.0
 40
1.006219572934834
  0
CIRCLE
  5
ACC
  8
ADAPTER
  6
HIDDEN
 10
2.7336162603952809
 20
-0.7934701393792185
 30
0.0
 40
1.1154999999999999
  0
LINE
  5
ACD
  8
ADAPTER
  6
HIDDEN
 10
4.6328289195952808
 20
0.0037739806207817
 30
0.0
 11
3.844500637391572
 21
0.3285771406207818
 31
0.0
  0
ARC
  5
ACE
  8
ADAPTER
  6
HIDDEN
 10
2.7336162603952809
 20
-0.7934701393792185
 30
0.0
 40
1.460629967999999
 50
309.8080062511122
 51
50.191993748887789
  0
ARC
  5
ACF
  8
ADAPTER
 10
2.7336162603952809
 20
-0.7934701393792185
 30
0.0
 40
1.460629967999999
 50
230.19199374888771
 51
309.8080062511122
  0
LINE
  5
AD0
  8
ADAPTER
 10
3.8445006373915751
 20
-1.9155174193792179
 30
0.0
 11
3.2900399623952459
 21
-2.143963592629671
 31
0.0
  0
CIRCLE
  5
AD1
  8
ADAPTER
  6
HIDDEN
 10
2.7336162603952809
 20
-0.7934701393792185
 30
0.0
 40
0.625
  0
LINE
  5
AD2
  8
ADAPTER
  6
HIDDEN
 10
4.0184010243043602
 20
-1.843867833198445
 30
0.0
 11
3.8445006373915751
 21
-1.9155174193792179
 31
0.0
  0
LINE
  5
AD3
  8
ADAPTER
  6
HIDDEN
 10
4.6131439885872254
 20
-1.6497693793792181
 30
0.0
 11
4.6131439885872254
 21
-1.895687817853154
 31
0.0
  0
LINE
  5
AD4
  8
ADAPTER
  6
HIDDEN
 10
4.4767620399632531
 20
-1.6497693793792181
 30
0.0
 11
4.4767620399632531
 21
-1.8956878178531591
 31
0.0
  0
LINE
  5
AD5
  8
ADAPTER
  6
HIDDEN
 10
4.2039981427153084
 20
-1.6497693793792181
 30
0.0
 11
4.2039981427153084
 21
-1.895687817853158
 31
0.0
  0
LINE
  5
AD6
  8
ADAPTER
  6
HIDDEN
 10
4.067616194091336
 20
-1.6497693793792181
 30
0.0
 11
4.067616194091336
 21
-1.895687817853154
 31
0.0
  0
ARC
  5
AD7
  8
ADAPTER
 10
4.5449530142752357
 20
-1.8493070802738489
 30
0.0
 40
0.0824692778919425
 50
214.22194995232161
 51
325.77805004767879
  0
ARC
  5
AD8
  8
ADAPTER
 10
4.1358071684033231
 20
-1.8493070802738489
 30
0.0
 40
0.0824692778919425
 50
214.2219499523211
 51
325.77805004767828
  0
LINE
  5
AD9
  8
ADAPTER
 10
4.1358071684033231
 20
-1.931776358165791
 30
0.0
 11
4.5449530142752383
 21
-1.931776358165791
 31
0.0
  0
ARC
  5
ADA
  8
ADAPTER
 10
4.340380091339286
 20
-1.6560320570669711
 30
0.0
 40
0.2757443010988207
 50
240.356905410038
 51
299.6430945899599
  0
LINE
  5
ADB
  8
ADAPTER
  6
HIDDEN
 10
4.6328289195952808
 20
-1.5907142593792181
 30
0.0
 11
4.0184010243043602
 21
-1.5907142593792181
 31
0.0
  0
LINE
  5
ADC
  8
ADAPTER
  6
HIDDEN
 10
4.0479311540913372
 20
-1.6497693793792181
 30
0.0
 11
4.6328290285872242
 21
-1.6497693793792181
 31
0.0
  0
LINE
  5
ADD
  8
ADAPTER
  6
HIDDEN
 10
4.0184010243043602
 20
-1.5907142593792181
 30
0.0
 11
4.0184010243043602
 21
-1.843867833198445
 31
0.0
  0
LINE
  5
ADE
  8
ADAPTER
  6
HIDDEN
 10
4.0479311540913372
 20
-1.6497693793792181
 30
0.0
 11
4.0479311540913372
 21
-1.5907142593792181
 31
0.0
  0
LINE
  5
ADF
  8
ADAPTER
  6
HIDDEN
 10
4.6328289195952808
 20
0.0037739806207817
 30
0.0
 11
4.6328289195952808
 21
-1.5907142593792181
 31
0.0
  0
LINE
  5
AE0
  8
ADAPTER
  6
HIDDEN
 10
4.6328290285872242
 20
-1.6497693793792181
 30
0.0
 11
4.6328290285872242
 21
-1.5907142593792181
 31
0.0
  0
ARC
  5
AE1
  8
ADAPTER
 10
2.7336162603952809
 20
-0.7934701393792185
 30
0.0
 40
1.460629967999999
 50
50.191993748887789
 51
129.80800625111209
  0
LINE
  5
AE2
  8
ADAPTER
 10
3.844500637391572
 20
0.3285771406207818
 30
0.0
 11
3.2900399623952459
 21
0.5570233138712358
 31
0.0
  0
LINE
  5
AE3
  8
ADAPTER
 10
0.7651122603952804
 20
7.3233287227032768
 30
0.0
 11
4.7021202603952821
 21
7.3233287227032768
 31
0.0
  0
LINE
  5
AE4
  8
ADAPTER
 10
1.2729862923952799
 20
10.06348629070327
 30
0.0
 11
4.1942462283952811
 21
10.06348629070327
 31
0.0
  0
LINE
  5
AE5
  8
ADAPTER
 10
0.7651122603952804
 20
7.7233287355032747
 30
0.0
 11
4.7021202603952821
 21
7.7233287355032791
 31
0.0
  0
LINE
  5
AE6
  8
ADAPTER
 10
1.2729862923952799
 20
10.06348629070327
 30
0.0
 11
1.2729862923952799
 21
7.7233287355032747
 31
0.0
  0
LINE
  5
AE7
  8
ADAPTER
 10
0.7651122603952804
 20
7.3233287227032768
 30
0.0
 11
0.7651122603952804
 21
7.7233287355032747
 31
0.0
  0
LINE
  5
AE8
  8
ADAPTER
  6
HIDDEN
 10
3.7241162603952822
 20
8.1884862907032741
 30
0.0
 11
3.7241162603952822
 21
7.4029955978043329
 31
0.0
  0
LINE
  5
AE9
  8
ADAPTER
  6
HIDDEN
 10
1.7431162603952799
 20
8.1884862907032741
 30
0.0
 11
1.7431162603952799
 21
7.4029955978043329
 31
0.0
  0
LINE
  5
AEA
  8
ADAPTER
 10
4.1942462283952819
 20
8.6363208907032778
 30
0.0
 11
4.1942462283952819
 21
7.7233287355032747
 31
0.0
  0
LINE
  5
AEB
  8
ADAPTER
  6
HIDDEN
 10
1.65093906039528
 20
7.205218482703275
 30
0.0
 11
3.8162934603952818
 21
7.205218482703275
 31
0.0
  0
LINE
  5
AEC
  8
ADAPTER
  6
HIDDEN
 10
1.7431162603952799
 20
7.4029955978043329
 30
0.0
 11
3.7241162603952822
 21
7.4029955978043329
 31
0.0
  0
LINE
  5
AED
  8
ADAPTER
  6
HIDDEN
 10
1.65093906039528
 20
7.3233287227032751
 30
0.0
 11
1.65093906039528
 21
7.205218482703275
 31
0.0
  0
LINE
  5
AEE
  8
ADAPTER
  6
HIDDEN
 10
2.1086162603952809
 20
7.205218482703275
 30
0.0
 11
2.1086162603952809
 21
7.4029955978043329
 31
0.0
  0
LINE
  5
AEF
  8
ADAPTER
  6
HIDDEN
 10
3.3586162603952809
 20
7.205218482703275
 30
0.0
 11
3.3586162603952809
 21
7.4029955978043329
 31
0.0
  0
LINE
  5
AF0
  8
ADAPTER
  6
HIDDEN
 10
3.8162934603952818
 20
7.205218482703275
 30
0.0
 11
3.8162934603952818
 21
7.3233287227032751
 31
0.0
  0
LINE
  5
AF1
  8
ADAPTER
 10
4.7021202603952821
 20
7.3233287227032768
 30
0.0
 11
4.7021202603952821
 21
7.7233287355032791
 31
0.0
  0
LINE
  5
AF2
  8
ADAPTER
  6
HIDDEN
 10
3.8491162603952822
 20
8.1884862907032741
 30
0.0
 11
1.6181162603952799
 21
8.1884862907032741
 31
0.0
  0
LINE
  5
AF3
  8
ADAPTER
  6
HIDDEN
 10
1.6181162603952799
 20
10.06348629070327
 30
0.0
 11
1.6181162603952799
 21
8.1884862907032741
 31
0.0
  0
LINE
  5
AF4
  8
ADAPTER
  6
HIDDEN
 10
3.8491162603952822
 20
10.06348629070327
 30
0.0
 11
3.8491162603952822
 21
8.1884862907032741
 31
0.0
  0
LINE
  5
AF5
  8
ADAPTER
  6
HIDDEN
 10
3.6485769195952811
 20
9.9650610907032764
 30
0.0
 11
3.6485769195952811
 21
8.6363208907032778
 31
0.0
  0
LINE
  5
AF6
  8
ADAPTER
 10
4.6328289195952808
 20
9.9650610907032764
 30
0.0
 11
4.6328289195952808
 21
8.6363208907032778
 31
0.0
  0
POLYLINE
  5
AF7
  8
ADAPTER
 66
     1
 10
0.0
 20
0.0
 30
0.0
 70
     1
  0
VERTEX
  5
B8F
  8
ADAPTER
 10
4.2039981427153101
 20
9.5369114549552432
 30
0.0
  0
VERTEX
  5
B90
  8
ADAPTER
 10
4.0676161940913369
 20
9.3006909907032771
 30
0.0
  0
VERTEX
  5
B91
  8
ADAPTER
 10
4.2039981427153101
 20
9.0644705264513092
 30
0.0
  0
VERTEX
  5
B92
  8
ADAPTER
 10
4.4767620399632531
 20
9.0644705264513092
 30
0.0
  0
VERTEX
  5
B93
  8
ADAPTER
 10
4.6131439885872254
 20
9.3006909907032771
 30
0.0
  0
VERTEX
  5
B94
  8
ADAPTER
 10
4.4767620399632531
 20
9.5369114549552432
 30
0.0
  0
SEQEND
  5
B95
  8
ADAPTER
  0
LINE
  5
AF8
  8
ADAPTER
 10
4.6328289195952808
 20
8.6363208907032778
 30
0.0
 11
3.6485769195952811
 21
8.6363208907032778
 31
0.0
  0
CIRCLE
  5
AF9
  8
ADAPTER
 10
4.3403800913392798
 20
9.3006909907032771
 30
0.0
 40
0.219347573948256
  0
LINE
  5
AFA
  8
ADAPTER
 10
3.6485769195952811
 20
9.9650610907032835
 30
0.0
 11
4.6328289195952808
 21
9.9650610907032764
 31
0.0
  0
LINE
  5
AFB
  8
ADAPTER
 10
4.1942462283952811
 20
10.06348629070327
 30
0.0
 11
4.1942462283952811
 21
9.9650610907032764
 31
0.0
  0
LINE
  5
AFD
  8
2-7
  6
HIDDEN
 10
1.65093906039528
 20
7.3233287227032751
 30
0.0
 11
1.65093906039528
 21
7.205218482703275
 31
0.0
  0
LINE
  5
AFE
  8
2-7
  6
HIDDEN
 10
1.65093906039528
 20
7.205218482703275
 30
0.0
 11
3.8162934603952818
 21
7.205218482703275
 31
0.0
  0
LINE
  5
AFF
  8
2-7
  6
HIDDEN
 10
3.8162934603952818
 20
7.205218482703275
 30
0.0
 11
3.8162934603952818
 21
7.3233287227032751
 31
0.0
  0
CIRCLE
  5
B00
  8
2-7
  6
HIDDEN
 10
2.7336162603952809
 20
-0.7934701393792177
 30
0.0
 40
1.0826772
  0
ENDSEC
  0
EOF
